ISO-10303-21;
HEADER;
/* Generated by software containing ST-Developer
 * from STEP Tools, Inc. (www.steptools.com) 
 */
/* OPTION: using custom schema-name function */

FILE_DESCRIPTION(
/* description */ (''),
/* implementation_level */ '2;1');

FILE_NAME(
/* name */ '52 DIAMETER B SECTION RING_A.stp',
/* time_stamp */ '2018-03-20T11:36:50+00:00',
/* author */ (''),
/* organization */ (''),
/* preprocessor_version */ 'ST-DEVELOPER v16',
/* originating_system */ 'SIEMENS PLM Software NX 10.0',
/* authorisation */ '');

FILE_SCHEMA (('AUTOMOTIVE_DESIGN { 1 0 10303 214 3 1 1 1 }'));
ENDSEC;

DATA;
#10=PROPERTY_DEFINITION_REPRESENTATION(#14,#12);
#11=PROPERTY_DEFINITION_REPRESENTATION(#15,#13);
#12=REPRESENTATION('',(#16),#695);
#13=REPRESENTATION('',(#17),#695);
#14=PROPERTY_DEFINITION('pmi validation property','',#21);
#15=PROPERTY_DEFINITION('pmi validation property','',#21);
#16=VALUE_REPRESENTATION_ITEM('number of annotations',COUNT_MEASURE(0.));
#17=VALUE_REPRESENTATION_ITEM('number of views',COUNT_MEASURE(0.));
#18=SHAPE_REPRESENTATION_RELATIONSHIP('None',
'relationship between mw13266C3CFCvo94-None and mw13266C3CFCvo94-None',
#30,#19);
#19=ADVANCED_BREP_SHAPE_REPRESENTATION('mw13266C3CFCvo94-None',(#40),#695);
#20=SHAPE_DEFINITION_REPRESENTATION(#21,#30);
#21=PRODUCT_DEFINITION_SHAPE('','',#22);
#22=PRODUCT_DEFINITION(' ','',#24,#23);
#23=PRODUCT_DEFINITION_CONTEXT('part definition',#29,'design');
#24=PRODUCT_DEFINITION_FORMATION_WITH_SPECIFIED_SOURCE(' ',' ',#26,
 .NOT_KNOWN.);
#25=PRODUCT_RELATED_PRODUCT_CATEGORY('part','',(#26));
#26=PRODUCT('mw13266C3CFCvo94','mw13266C3CFCvo94',' ',(#27));
#27=PRODUCT_CONTEXT(' ',#29,'mechanical');
#28=APPLICATION_PROTOCOL_DEFINITION('international standard',
'automotive_design',2010,#29);
#29=APPLICATION_CONTEXT(
'core data for automotive mechanical design processes');
#30=SHAPE_REPRESENTATION('mw13266C3CFCvo94-None',(#414),#695);
#31=PRESENTATION_LAYER_ASSIGNMENT('1','Layer 1',(#40));
#32=STYLED_ITEM('',(#33),#40);
#33=PRESENTATION_STYLE_ASSIGNMENT((#34));
#34=SURFACE_STYLE_USAGE(.BOTH.,#35);
#35=SURFACE_SIDE_STYLE('',(#36));
#36=SURFACE_STYLE_FILL_AREA(#37);
#37=FILL_AREA_STYLE('',(#38));
#38=FILL_AREA_STYLE_COLOUR('',#39);
#39=DRAUGHTING_PRE_DEFINED_COLOUR('green');
#40=MANIFOLD_SOLID_BREP('',#41);
#41=CLOSED_SHELL('',(#61,#62,#63,#64,#65,#66,#67,#68,#69,#70,#71,#72,#73,
#74,#75,#76,#77,#78,#79,#80,#81,#82,#83,#84));
#42=TOROIDAL_SURFACE('',#470,22.,0.5);
#43=PLANE('',#434);
#44=PLANE('',#452);
#45=PLANE('',#457);
#46=CYLINDRICAL_SURFACE('',#419,22.5);
#47=CYLINDRICAL_SURFACE('',#437,16.01);
#48=CYLINDRICAL_SURFACE('',#455,26.075);
#49=CYLINDRICAL_SURFACE('',#458,1.75);
#50=CYLINDRICAL_SURFACE('',#459,1.75);
#51=CYLINDRICAL_SURFACE('',#460,1.75);
#52=CYLINDRICAL_SURFACE('',#461,1.75);
#53=CYLINDRICAL_SURFACE('',#462,1.75);
#54=CYLINDRICAL_SURFACE('',#463,1.75);
#55=CYLINDRICAL_SURFACE('',#464,1.3);
#56=CYLINDRICAL_SURFACE('',#465,1.3);
#57=CYLINDRICAL_SURFACE('',#466,1.3);
#58=CYLINDRICAL_SURFACE('',#467,1.3);
#59=CYLINDRICAL_SURFACE('',#468,1.3);
#60=CYLINDRICAL_SURFACE('',#469,1.3);
#61=ADVANCED_FACE('',(#90,#91),#85,.F.);
#62=ADVANCED_FACE('',(#92,#93),#46,.F.);
#63=ADVANCED_FACE('',(#94,#95,#96,#97,#98,#99,#100,#101,#102,#103,#104,
#105,#106,#107),#43,.T.);
#64=ADVANCED_FACE('',(#108,#109),#47,.F.);
#65=ADVANCED_FACE('',(#110,#111,#112,#113,#114,#115,#116,#117,#118,#119,
#120,#121,#122,#123),#44,.T.);
#66=ADVANCED_FACE('',(#124,#125),#48,.T.);
#67=ADVANCED_FACE('',(#126,#127),#45,.T.);
#68=ADVANCED_FACE('',(#128,#129),#49,.F.);
#69=ADVANCED_FACE('',(#130,#131),#50,.F.);
#70=ADVANCED_FACE('',(#132,#133),#51,.F.);
#71=ADVANCED_FACE('',(#134,#135),#52,.F.);
#72=ADVANCED_FACE('',(#136,#137),#53,.F.);
#73=ADVANCED_FACE('',(#138,#139),#54,.F.);
#74=ADVANCED_FACE('',(#140,#141),#55,.F.);
#75=ADVANCED_FACE('',(#142,#143),#56,.F.);
#76=ADVANCED_FACE('',(#144,#145),#57,.F.);
#77=ADVANCED_FACE('',(#146,#147),#58,.F.);
#78=ADVANCED_FACE('',(#148,#149),#59,.F.);
#79=ADVANCED_FACE('',(#150,#151),#60,.F.);
#80=ADVANCED_FACE('',(#152,#153),#42,.F.);
#81=ADVANCED_FACE('',(#154,#155),#86,.F.);
#82=ADVANCED_FACE('',(#156,#157),#87,.T.);
#83=ADVANCED_FACE('',(#158,#159),#88,.T.);
#84=ADVANCED_FACE('',(#160,#161),#89,.F.);
#85=CONICAL_SURFACE('',#417,25.,44.9999999999999);
#86=CONICAL_SURFACE('',#471,16.21,44.9999999999998);
#87=CONICAL_SURFACE('',#472,26.075,44.9999999999999);
#88=CONICAL_SURFACE('',#473,25.875,44.9999999999998);
#89=CONICAL_SURFACE('',#474,16.01,45.);
#90=FACE_BOUND('',#162,.T.);
#91=FACE_BOUND('',#163,.T.);
#92=FACE_BOUND('',#164,.T.);
#93=FACE_BOUND('',#165,.T.);
#94=FACE_BOUND('',#166,.T.);
#95=FACE_BOUND('',#167,.T.);
#96=FACE_BOUND('',#168,.T.);
#97=FACE_BOUND('',#169,.T.);
#98=FACE_BOUND('',#170,.T.);
#99=FACE_BOUND('',#171,.T.);
#100=FACE_BOUND('',#172,.T.);
#101=FACE_BOUND('',#173,.T.);
#102=FACE_BOUND('',#174,.T.);
#103=FACE_BOUND('',#175,.T.);
#104=FACE_BOUND('',#176,.T.);
#105=FACE_BOUND('',#177,.T.);
#106=FACE_BOUND('',#178,.T.);
#107=FACE_BOUND('',#179,.T.);
#108=FACE_BOUND('',#180,.T.);
#109=FACE_BOUND('',#181,.T.);
#110=FACE_BOUND('',#182,.T.);
#111=FACE_BOUND('',#183,.T.);
#112=FACE_BOUND('',#184,.T.);
#113=FACE_BOUND('',#185,.T.);
#114=FACE_BOUND('',#186,.T.);
#115=FACE_BOUND('',#187,.T.);
#116=FACE_BOUND('',#188,.T.);
#117=FACE_BOUND('',#189,.T.);
#118=FACE_BOUND('',#190,.T.);
#119=FACE_BOUND('',#191,.T.);
#120=FACE_BOUND('',#192,.T.);
#121=FACE_BOUND('',#193,.T.);
#122=FACE_BOUND('',#194,.T.);
#123=FACE_BOUND('',#195,.T.);
#124=FACE_BOUND('',#196,.T.);
#125=FACE_BOUND('',#197,.T.);
#126=FACE_BOUND('',#198,.T.);
#127=FACE_BOUND('',#199,.T.);
#128=FACE_BOUND('',#200,.T.);
#129=FACE_BOUND('',#201,.T.);
#130=FACE_BOUND('',#202,.T.);
#131=FACE_BOUND('',#203,.T.);
#132=FACE_BOUND('',#204,.T.);
#133=FACE_BOUND('',#205,.T.);
#134=FACE_BOUND('',#206,.T.);
#135=FACE_BOUND('',#207,.T.);
#136=FACE_BOUND('',#208,.T.);
#137=FACE_BOUND('',#209,.T.);
#138=FACE_BOUND('',#210,.T.);
#139=FACE_BOUND('',#211,.T.);
#140=FACE_BOUND('',#212,.T.);
#141=FACE_BOUND('',#213,.T.);
#142=FACE_BOUND('',#214,.T.);
#143=FACE_BOUND('',#215,.T.);
#144=FACE_BOUND('',#216,.T.);
#145=FACE_BOUND('',#217,.T.);
#146=FACE_BOUND('',#218,.T.);
#147=FACE_BOUND('',#219,.T.);
#148=FACE_BOUND('',#220,.T.);
#149=FACE_BOUND('',#221,.T.);
#150=FACE_BOUND('',#222,.T.);
#151=FACE_BOUND('',#223,.T.);
#152=FACE_BOUND('',#224,.T.);
#153=FACE_BOUND('',#225,.T.);
#154=FACE_BOUND('',#226,.T.);
#155=FACE_BOUND('',#227,.T.);
#156=FACE_BOUND('',#228,.T.);
#157=FACE_BOUND('',#229,.T.);
#158=FACE_BOUND('',#230,.T.);
#159=FACE_BOUND('',#231,.T.);
#160=FACE_BOUND('',#232,.T.);
#161=FACE_BOUND('',#233,.T.);
#162=EDGE_LOOP('',(#234));
#163=EDGE_LOOP('',(#235));
#164=EDGE_LOOP('',(#236));
#165=EDGE_LOOP('',(#237));
#166=EDGE_LOOP('',(#238));
#167=EDGE_LOOP('',(#239));
#168=EDGE_LOOP('',(#240));
#169=EDGE_LOOP('',(#241));
#170=EDGE_LOOP('',(#242));
#171=EDGE_LOOP('',(#243));
#172=EDGE_LOOP('',(#244));
#173=EDGE_LOOP('',(#245));
#174=EDGE_LOOP('',(#246));
#175=EDGE_LOOP('',(#247));
#176=EDGE_LOOP('',(#248));
#177=EDGE_LOOP('',(#249));
#178=EDGE_LOOP('',(#250));
#179=EDGE_LOOP('',(#251));
#180=EDGE_LOOP('',(#252));
#181=EDGE_LOOP('',(#253));
#182=EDGE_LOOP('',(#254));
#183=EDGE_LOOP('',(#255));
#184=EDGE_LOOP('',(#256));
#185=EDGE_LOOP('',(#257));
#186=EDGE_LOOP('',(#258));
#187=EDGE_LOOP('',(#259));
#188=EDGE_LOOP('',(#260));
#189=EDGE_LOOP('',(#261));
#190=EDGE_LOOP('',(#262));
#191=EDGE_LOOP('',(#263));
#192=EDGE_LOOP('',(#264));
#193=EDGE_LOOP('',(#265));
#194=EDGE_LOOP('',(#266));
#195=EDGE_LOOP('',(#267));
#196=EDGE_LOOP('',(#268));
#197=EDGE_LOOP('',(#269));
#198=EDGE_LOOP('',(#270));
#199=EDGE_LOOP('',(#271));
#200=EDGE_LOOP('',(#272));
#201=EDGE_LOOP('',(#273));
#202=EDGE_LOOP('',(#274));
#203=EDGE_LOOP('',(#275));
#204=EDGE_LOOP('',(#276));
#205=EDGE_LOOP('',(#277));
#206=EDGE_LOOP('',(#278));
#207=EDGE_LOOP('',(#279));
#208=EDGE_LOOP('',(#280));
#209=EDGE_LOOP('',(#281));
#210=EDGE_LOOP('',(#282));
#211=EDGE_LOOP('',(#283));
#212=EDGE_LOOP('',(#284));
#213=EDGE_LOOP('',(#285));
#214=EDGE_LOOP('',(#286));
#215=EDGE_LOOP('',(#287));
#216=EDGE_LOOP('',(#288));
#217=EDGE_LOOP('',(#289));
#218=EDGE_LOOP('',(#290));
#219=EDGE_LOOP('',(#291));
#220=EDGE_LOOP('',(#292));
#221=EDGE_LOOP('',(#293));
#222=EDGE_LOOP('',(#294));
#223=EDGE_LOOP('',(#295));
#224=EDGE_LOOP('',(#296));
#225=EDGE_LOOP('',(#297));
#226=EDGE_LOOP('',(#298));
#227=EDGE_LOOP('',(#299));
#228=EDGE_LOOP('',(#300));
#229=EDGE_LOOP('',(#301));
#230=EDGE_LOOP('',(#302));
#231=EDGE_LOOP('',(#303));
#232=EDGE_LOOP('',(#304));
#233=EDGE_LOOP('',(#305));
#234=ORIENTED_EDGE('',*,*,#342,.T.);
#235=ORIENTED_EDGE('',*,*,#343,.F.);
#236=ORIENTED_EDGE('',*,*,#344,.T.);
#237=ORIENTED_EDGE('',*,*,#342,.F.);
#238=ORIENTED_EDGE('',*,*,#345,.T.);
#239=ORIENTED_EDGE('',*,*,#346,.T.);
#240=ORIENTED_EDGE('',*,*,#347,.F.);
#241=ORIENTED_EDGE('',*,*,#348,.F.);
#242=ORIENTED_EDGE('',*,*,#349,.F.);
#243=ORIENTED_EDGE('',*,*,#350,.F.);
#244=ORIENTED_EDGE('',*,*,#351,.F.);
#245=ORIENTED_EDGE('',*,*,#352,.F.);
#246=ORIENTED_EDGE('',*,*,#353,.F.);
#247=ORIENTED_EDGE('',*,*,#354,.F.);
#248=ORIENTED_EDGE('',*,*,#355,.F.);
#249=ORIENTED_EDGE('',*,*,#356,.F.);
#250=ORIENTED_EDGE('',*,*,#357,.F.);
#251=ORIENTED_EDGE('',*,*,#358,.F.);
#252=ORIENTED_EDGE('',*,*,#359,.T.);
#253=ORIENTED_EDGE('',*,*,#360,.T.);
#254=ORIENTED_EDGE('',*,*,#361,.T.);
#255=ORIENTED_EDGE('',*,*,#362,.T.);
#256=ORIENTED_EDGE('',*,*,#363,.T.);
#257=ORIENTED_EDGE('',*,*,#364,.T.);
#258=ORIENTED_EDGE('',*,*,#365,.T.);
#259=ORIENTED_EDGE('',*,*,#366,.T.);
#260=ORIENTED_EDGE('',*,*,#367,.T.);
#261=ORIENTED_EDGE('',*,*,#368,.T.);
#262=ORIENTED_EDGE('',*,*,#369,.T.);
#263=ORIENTED_EDGE('',*,*,#370,.T.);
#264=ORIENTED_EDGE('',*,*,#371,.T.);
#265=ORIENTED_EDGE('',*,*,#372,.T.);
#266=ORIENTED_EDGE('',*,*,#373,.T.);
#267=ORIENTED_EDGE('',*,*,#374,.T.);
#268=ORIENTED_EDGE('',*,*,#375,.T.);
#269=ORIENTED_EDGE('',*,*,#376,.T.);
#270=ORIENTED_EDGE('',*,*,#377,.T.);
#271=ORIENTED_EDGE('',*,*,#343,.T.);
#272=ORIENTED_EDGE('',*,*,#358,.T.);
#273=ORIENTED_EDGE('',*,*,#374,.F.);
#274=ORIENTED_EDGE('',*,*,#357,.T.);
#275=ORIENTED_EDGE('',*,*,#373,.F.);
#276=ORIENTED_EDGE('',*,*,#356,.T.);
#277=ORIENTED_EDGE('',*,*,#372,.F.);
#278=ORIENTED_EDGE('',*,*,#355,.T.);
#279=ORIENTED_EDGE('',*,*,#371,.F.);
#280=ORIENTED_EDGE('',*,*,#354,.T.);
#281=ORIENTED_EDGE('',*,*,#370,.F.);
#282=ORIENTED_EDGE('',*,*,#353,.T.);
#283=ORIENTED_EDGE('',*,*,#369,.F.);
#284=ORIENTED_EDGE('',*,*,#352,.T.);
#285=ORIENTED_EDGE('',*,*,#368,.F.);
#286=ORIENTED_EDGE('',*,*,#351,.T.);
#287=ORIENTED_EDGE('',*,*,#367,.F.);
#288=ORIENTED_EDGE('',*,*,#350,.T.);
#289=ORIENTED_EDGE('',*,*,#366,.F.);
#290=ORIENTED_EDGE('',*,*,#349,.T.);
#291=ORIENTED_EDGE('',*,*,#365,.F.);
#292=ORIENTED_EDGE('',*,*,#348,.T.);
#293=ORIENTED_EDGE('',*,*,#364,.F.);
#294=ORIENTED_EDGE('',*,*,#347,.T.);
#295=ORIENTED_EDGE('',*,*,#363,.F.);
#296=ORIENTED_EDGE('',*,*,#346,.F.);
#297=ORIENTED_EDGE('',*,*,#344,.F.);
#298=ORIENTED_EDGE('',*,*,#360,.F.);
#299=ORIENTED_EDGE('',*,*,#345,.F.);
#300=ORIENTED_EDGE('',*,*,#377,.F.);
#301=ORIENTED_EDGE('',*,*,#375,.F.);
#302=ORIENTED_EDGE('',*,*,#376,.F.);
#303=ORIENTED_EDGE('',*,*,#362,.F.);
#304=ORIENTED_EDGE('',*,*,#361,.F.);
#305=ORIENTED_EDGE('',*,*,#359,.F.);
#306=VERTEX_POINT('',#599);
#307=VERTEX_POINT('',#601);
#308=VERTEX_POINT('',#604);
#309=VERTEX_POINT('',#607);
#310=VERTEX_POINT('',#609);
#311=VERTEX_POINT('',#611);
#312=VERTEX_POINT('',#613);
#313=VERTEX_POINT('',#615);
#314=VERTEX_POINT('',#617);
#315=VERTEX_POINT('',#619);
#316=VERTEX_POINT('',#621);
#317=VERTEX_POINT('',#623);
#318=VERTEX_POINT('',#625);
#319=VERTEX_POINT('',#627);
#320=VERTEX_POINT('',#629);
#321=VERTEX_POINT('',#631);
#322=VERTEX_POINT('',#633);
#323=VERTEX_POINT('',#636);
#324=VERTEX_POINT('',#638);
#325=VERTEX_POINT('',#641);
#326=VERTEX_POINT('',#643);
#327=VERTEX_POINT('',#645);
#328=VERTEX_POINT('',#647);
#329=VERTEX_POINT('',#649);
#330=VERTEX_POINT('',#651);
#331=VERTEX_POINT('',#653);
#332=VERTEX_POINT('',#655);
#333=VERTEX_POINT('',#657);
#334=VERTEX_POINT('',#659);
#335=VERTEX_POINT('',#661);
#336=VERTEX_POINT('',#663);
#337=VERTEX_POINT('',#665);
#338=VERTEX_POINT('',#667);
#339=VERTEX_POINT('',#670);
#340=VERTEX_POINT('',#672);
#341=VERTEX_POINT('',#675);
#342=EDGE_CURVE('',#306,#306,#378,.T.);
#343=EDGE_CURVE('',#307,#307,#379,.T.);
#344=EDGE_CURVE('',#308,#308,#380,.T.);
#345=EDGE_CURVE('',#309,#309,#381,.T.);
#346=EDGE_CURVE('',#310,#310,#382,.T.);
#347=EDGE_CURVE('',#311,#311,#383,.T.);
#348=EDGE_CURVE('',#312,#312,#384,.T.);
#349=EDGE_CURVE('',#313,#313,#385,.T.);
#350=EDGE_CURVE('',#314,#314,#386,.T.);
#351=EDGE_CURVE('',#315,#315,#387,.T.);
#352=EDGE_CURVE('',#316,#316,#388,.T.);
#353=EDGE_CURVE('',#317,#317,#389,.T.);
#354=EDGE_CURVE('',#318,#318,#390,.T.);
#355=EDGE_CURVE('',#319,#319,#391,.T.);
#356=EDGE_CURVE('',#320,#320,#392,.T.);
#357=EDGE_CURVE('',#321,#321,#393,.T.);
#358=EDGE_CURVE('',#322,#322,#394,.T.);
#359=EDGE_CURVE('',#323,#323,#395,.T.);
#360=EDGE_CURVE('',#324,#324,#396,.T.);
#361=EDGE_CURVE('',#325,#325,#397,.T.);
#362=EDGE_CURVE('',#326,#326,#398,.T.);
#363=EDGE_CURVE('',#327,#327,#399,.T.);
#364=EDGE_CURVE('',#328,#328,#400,.T.);
#365=EDGE_CURVE('',#329,#329,#401,.T.);
#366=EDGE_CURVE('',#330,#330,#402,.T.);
#367=EDGE_CURVE('',#331,#331,#403,.T.);
#368=EDGE_CURVE('',#332,#332,#404,.T.);
#369=EDGE_CURVE('',#333,#333,#405,.T.);
#370=EDGE_CURVE('',#334,#334,#406,.T.);
#371=EDGE_CURVE('',#335,#335,#407,.T.);
#372=EDGE_CURVE('',#336,#336,#408,.T.);
#373=EDGE_CURVE('',#337,#337,#409,.T.);
#374=EDGE_CURVE('',#338,#338,#410,.T.);
#375=EDGE_CURVE('',#339,#339,#411,.T.);
#376=EDGE_CURVE('',#340,#340,#412,.T.);
#377=EDGE_CURVE('',#341,#341,#413,.T.);
#378=CIRCLE('',#415,22.5);
#379=CIRCLE('',#416,25.);
#380=CIRCLE('',#418,22.5);
#381=CIRCLE('',#420,16.21);
#382=CIRCLE('',#421,22.);
#383=CIRCLE('',#422,1.3);
#384=CIRCLE('',#423,1.3);
#385=CIRCLE('',#424,1.3);
#386=CIRCLE('',#425,1.3);
#387=CIRCLE('',#426,1.3);
#388=CIRCLE('',#427,1.3);
#389=CIRCLE('',#428,1.75);
#390=CIRCLE('',#429,1.75);
#391=CIRCLE('',#430,1.75);
#392=CIRCLE('',#431,1.75);
#393=CIRCLE('',#432,1.75);
#394=CIRCLE('',#433,1.75);
#395=CIRCLE('',#435,16.01);
#396=CIRCLE('',#436,16.01);
#397=CIRCLE('',#438,16.71);
#398=CIRCLE('',#439,25.875);
#399=CIRCLE('',#440,1.3);
#400=CIRCLE('',#441,1.3);
#401=CIRCLE('',#442,1.3);
#402=CIRCLE('',#443,1.3);
#403=CIRCLE('',#444,1.3);
#404=CIRCLE('',#445,1.3);
#405=CIRCLE('',#446,1.75);
#406=CIRCLE('',#447,1.75);
#407=CIRCLE('',#448,1.75);
#408=CIRCLE('',#449,1.75);
#409=CIRCLE('',#450,1.75);
#410=CIRCLE('',#451,1.75);
#411=CIRCLE('',#453,26.075);
#412=CIRCLE('',#454,26.075);
#413=CIRCLE('',#456,25.875);
#414=AXIS2_PLACEMENT_3D('',#597,#475,#476);
#415=AXIS2_PLACEMENT_3D('',#598,#477,#478);
#416=AXIS2_PLACEMENT_3D('',#600,#479,#480);
#417=AXIS2_PLACEMENT_3D('',#602,#481,#482);
#418=AXIS2_PLACEMENT_3D('',#603,#483,#484);
#419=AXIS2_PLACEMENT_3D('',#605,#485,#486);
#420=AXIS2_PLACEMENT_3D('',#606,#487,#488);
#421=AXIS2_PLACEMENT_3D('',#608,#489,#490);
#422=AXIS2_PLACEMENT_3D('',#610,#491,#492);
#423=AXIS2_PLACEMENT_3D('',#612,#493,#494);
#424=AXIS2_PLACEMENT_3D('',#614,#495,#496);
#425=AXIS2_PLACEMENT_3D('',#616,#497,#498);
#426=AXIS2_PLACEMENT_3D('',#618,#499,#500);
#427=AXIS2_PLACEMENT_3D('',#620,#501,#502);
#428=AXIS2_PLACEMENT_3D('',#622,#503,#504);
#429=AXIS2_PLACEMENT_3D('',#624,#505,#506);
#430=AXIS2_PLACEMENT_3D('',#626,#507,#508);
#431=AXIS2_PLACEMENT_3D('',#628,#509,#510);
#432=AXIS2_PLACEMENT_3D('',#630,#511,#512);
#433=AXIS2_PLACEMENT_3D('',#632,#513,#514);
#434=AXIS2_PLACEMENT_3D('',#634,#515,#516);
#435=AXIS2_PLACEMENT_3D('',#635,#517,#518);
#436=AXIS2_PLACEMENT_3D('',#637,#519,#520);
#437=AXIS2_PLACEMENT_3D('',#639,#521,#522);
#438=AXIS2_PLACEMENT_3D('',#640,#523,#524);
#439=AXIS2_PLACEMENT_3D('',#642,#525,#526);
#440=AXIS2_PLACEMENT_3D('',#644,#527,#528);
#441=AXIS2_PLACEMENT_3D('',#646,#529,#530);
#442=AXIS2_PLACEMENT_3D('',#648,#531,#532);
#443=AXIS2_PLACEMENT_3D('',#650,#533,#534);
#444=AXIS2_PLACEMENT_3D('',#652,#535,#536);
#445=AXIS2_PLACEMENT_3D('',#654,#537,#538);
#446=AXIS2_PLACEMENT_3D('',#656,#539,#540);
#447=AXIS2_PLACEMENT_3D('',#658,#541,#542);
#448=AXIS2_PLACEMENT_3D('',#660,#543,#544);
#449=AXIS2_PLACEMENT_3D('',#662,#545,#546);
#450=AXIS2_PLACEMENT_3D('',#664,#547,#548);
#451=AXIS2_PLACEMENT_3D('',#666,#549,#550);
#452=AXIS2_PLACEMENT_3D('',#668,#551,#552);
#453=AXIS2_PLACEMENT_3D('',#669,#553,#554);
#454=AXIS2_PLACEMENT_3D('',#671,#555,#556);
#455=AXIS2_PLACEMENT_3D('',#673,#557,#558);
#456=AXIS2_PLACEMENT_3D('',#674,#559,#560);
#457=AXIS2_PLACEMENT_3D('',#676,#561,#562);
#458=AXIS2_PLACEMENT_3D('',#677,#563,#564);
#459=AXIS2_PLACEMENT_3D('',#678,#565,#566);
#460=AXIS2_PLACEMENT_3D('',#679,#567,#568);
#461=AXIS2_PLACEMENT_3D('',#680,#569,#570);
#462=AXIS2_PLACEMENT_3D('',#681,#571,#572);
#463=AXIS2_PLACEMENT_3D('',#682,#573,#574);
#464=AXIS2_PLACEMENT_3D('',#683,#575,#576);
#465=AXIS2_PLACEMENT_3D('',#684,#577,#578);
#466=AXIS2_PLACEMENT_3D('',#685,#579,#580);
#467=AXIS2_PLACEMENT_3D('',#686,#581,#582);
#468=AXIS2_PLACEMENT_3D('',#687,#583,#584);
#469=AXIS2_PLACEMENT_3D('',#688,#585,#586);
#470=AXIS2_PLACEMENT_3D('',#689,#587,#588);
#471=AXIS2_PLACEMENT_3D('',#690,#589,#590);
#472=AXIS2_PLACEMENT_3D('',#691,#591,#592);
#473=AXIS2_PLACEMENT_3D('',#692,#593,#594);
#474=AXIS2_PLACEMENT_3D('',#693,#595,#596);
#475=DIRECTION('',(0.,0.,1.));
#476=DIRECTION('',(1.,0.,0.));
#477=DIRECTION('',(-1.,0.,0.));
#478=DIRECTION('',(0.,0.,1.));
#479=DIRECTION('',(-1.,0.,0.));
#480=DIRECTION('',(0.,0.,1.));
#481=DIRECTION('',(1.,0.,0.));
#482=DIRECTION('',(1.04929615132256E-16,0.,-1.));
#483=DIRECTION('',(-1.,0.,0.));
#484=DIRECTION('',(0.,0.,-1.));
#485=DIRECTION('',(-1.,0.,0.));
#486=DIRECTION('',(0.,0.,1.));
#487=DIRECTION('',(-1.,0.,0.));
#488=DIRECTION('',(0.,0.,-1.));
#489=DIRECTION('',(1.,0.,0.));
#490=DIRECTION('',(0.,0.,-1.));
#491=DIRECTION('',(1.,0.,0.));
#492=DIRECTION('',(0.,0.,-1.));
#493=DIRECTION('',(1.,0.,0.));
#494=DIRECTION('',(0.,0.,-1.));
#495=DIRECTION('',(1.,0.,0.));
#496=DIRECTION('',(0.,0.,-0.999999999999999));
#497=DIRECTION('',(1.,0.,0.));
#498=DIRECTION('',(0.,0.,-0.999999999999999));
#499=DIRECTION('',(1.,0.,0.));
#500=DIRECTION('',(0.,0.,-1.));
#501=DIRECTION('',(1.,0.,0.));
#502=DIRECTION('',(0.,0.,-1.));
#503=DIRECTION('',(1.,0.,0.));
#504=DIRECTION('',(0.,0.,-1.));
#505=DIRECTION('',(1.,0.,0.));
#506=DIRECTION('',(0.,0.,-1.));
#507=DIRECTION('',(1.,0.,0.));
#508=DIRECTION('',(0.,0.,-1.));
#509=DIRECTION('',(1.,0.,0.));
#510=DIRECTION('',(0.,0.,-1.));
#511=DIRECTION('',(1.,0.,0.));
#512=DIRECTION('',(0.,0.,-1.));
#513=DIRECTION('',(1.,0.,0.));
#514=DIRECTION('',(0.,0.,-1.));
#515=DIRECTION('',(1.,0.,0.));
#516=DIRECTION('',(0.,0.,-1.));
#517=DIRECTION('',(-1.,0.,0.));
#518=DIRECTION('',(0.,0.,1.));
#519=DIRECTION('',(1.,0.,0.));
#520=DIRECTION('',(0.,0.,-1.));
#521=DIRECTION('',(-1.,0.,0.));
#522=DIRECTION('',(0.,0.,1.));
#523=DIRECTION('',(1.,0.,0.));
#524=DIRECTION('',(0.,0.,1.));
#525=DIRECTION('',(-1.,0.,0.));
#526=DIRECTION('',(0.,0.,1.));
#527=DIRECTION('',(1.,0.,0.));
#528=DIRECTION('',(0.,0.,-1.));
#529=DIRECTION('',(1.,0.,0.));
#530=DIRECTION('',(0.,0.,-1.));
#531=DIRECTION('',(1.,0.,0.));
#532=DIRECTION('',(0.,0.,-0.999999999999999));
#533=DIRECTION('',(1.,0.,0.));
#534=DIRECTION('',(0.,0.,-0.999999999999999));
#535=DIRECTION('',(1.,0.,0.));
#536=DIRECTION('',(0.,0.,-1.));
#537=DIRECTION('',(1.,0.,0.));
#538=DIRECTION('',(0.,0.,-1.));
#539=DIRECTION('',(1.,0.,0.));
#540=DIRECTION('',(0.,0.,-1.));
#541=DIRECTION('',(1.,0.,0.));
#542=DIRECTION('',(0.,0.,-1.));
#543=DIRECTION('',(1.,0.,0.));
#544=DIRECTION('',(0.,0.,-1.));
#545=DIRECTION('',(1.,0.,0.));
#546=DIRECTION('',(0.,0.,-1.));
#547=DIRECTION('',(1.,0.,0.));
#548=DIRECTION('',(0.,0.,-1.));
#549=DIRECTION('',(1.,0.,0.));
#550=DIRECTION('',(0.,0.,-1.));
#551=DIRECTION('',(-1.,0.,0.));
#552=DIRECTION('',(0.,0.,1.));
#553=DIRECTION('',(-1.,0.,0.));
#554=DIRECTION('',(0.,0.,-1.));
#555=DIRECTION('',(1.,0.,0.));
#556=DIRECTION('',(0.,0.,1.));
#557=DIRECTION('',(-1.,0.,0.));
#558=DIRECTION('',(0.,0.,1.));
#559=DIRECTION('',(1.,0.,0.));
#560=DIRECTION('',(0.,0.,-1.));
#561=DIRECTION('',(1.,0.,0.));
#562=DIRECTION('',(0.,0.,-1.));
#563=DIRECTION('',(1.,0.,0.));
#564=DIRECTION('',(0.,0.,-1.));
#565=DIRECTION('',(1.,0.,0.));
#566=DIRECTION('',(0.,0.,-1.));
#567=DIRECTION('',(1.,0.,0.));
#568=DIRECTION('',(0.,0.,-1.));
#569=DIRECTION('',(1.,0.,0.));
#570=DIRECTION('',(0.,0.,-1.));
#571=DIRECTION('',(1.,0.,0.));
#572=DIRECTION('',(0.,0.,-1.));
#573=DIRECTION('',(1.,0.,0.));
#574=DIRECTION('',(0.,0.,-1.));
#575=DIRECTION('',(1.,0.,0.));
#576=DIRECTION('',(0.,0.,-1.));
#577=DIRECTION('',(1.,0.,0.));
#578=DIRECTION('',(0.,0.,-1.));
#579=DIRECTION('',(1.,0.,0.));
#580=DIRECTION('',(0.,0.,-0.999999999999999));
#581=DIRECTION('',(1.,0.,0.));
#582=DIRECTION('',(0.,0.,-0.999999999999999));
#583=DIRECTION('',(1.,0.,0.));
#584=DIRECTION('',(0.,0.,-1.));
#585=DIRECTION('',(1.,0.,0.));
#586=DIRECTION('',(0.,0.,-1.));
#587=DIRECTION('',(1.,0.,0.));
#588=DIRECTION('',(0.,0.,-1.));
#589=DIRECTION('',(1.,0.,0.));
#590=DIRECTION('',(-1.06690760028489E-16,0.,-1.));
#591=DIRECTION('',(-1.,0.,0.));
#592=DIRECTION('',(1.77517203886232E-17,0.,1.));
#593=DIRECTION('',(1.,0.,0.));
#594=DIRECTION('',(0.,0.,-1.));
#595=DIRECTION('',(-1.,0.,0.));
#596=DIRECTION('',(3.34007814871865E-17,0.,1.));
#597=CARTESIAN_POINT('',(0.,0.,0.));
#598=CARTESIAN_POINT('',(4.5,0.,0.));
#599=CARTESIAN_POINT('',(4.5,0.,22.5));
#600=CARTESIAN_POINT('',(7.00000000000001,0.,0.));
#601=CARTESIAN_POINT('',(7.00000000000001,0.,25.));
#602=CARTESIAN_POINT('',(7.00000000000001,0.,0.));
#603=CARTESIAN_POINT('',(3.5,0.,0.));
#604=CARTESIAN_POINT('',(3.5,0.,-22.5));
#605=CARTESIAN_POINT('',(0.,0.,0.));
#606=CARTESIAN_POINT('',(3.,0.,0.));
#607=CARTESIAN_POINT('',(3.,0.,-16.21));
#608=CARTESIAN_POINT('',(3.,0.,0.));
#609=CARTESIAN_POINT('',(3.,0.,-22.));
#610=CARTESIAN_POINT('',(3.,9.50000000000008,16.4544826719043));
#611=CARTESIAN_POINT('',(3.,9.50000000000008,15.1544826719043));
#612=CARTESIAN_POINT('',(3.,19.,-6.57252030578093E-14));
#613=CARTESIAN_POINT('',(3.,19.,-1.30000000000007));
#614=CARTESIAN_POINT('',(3.,9.49999999999995,-16.4544826719044));
#615=CARTESIAN_POINT('',(3.,9.49999999999995,-17.7544826719044));
#616=CARTESIAN_POINT('',(3.,-9.49999999999999,-16.4544826719043));
#617=CARTESIAN_POINT('',(3.,-9.49999999999999,-17.7544826719043));
#618=CARTESIAN_POINT('',(3.,-19.,1.95399252334028E-14));
#619=CARTESIAN_POINT('',(3.,-19.,-1.29999999999998));
#620=CARTESIAN_POINT('',(3.,-9.49999999999999,16.4544826719043));
#621=CARTESIAN_POINT('',(3.,-9.49999999999999,15.1544826719043));
#622=CARTESIAN_POINT('',(3.,16.4544826719044,9.49999999999993));
#623=CARTESIAN_POINT('',(3.,16.4544826719044,7.74999999999993));
#624=CARTESIAN_POINT('',(3.,16.4544826719043,-9.50000000000006));
#625=CARTESIAN_POINT('',(3.,16.4544826719043,-11.2500000000001));
#626=CARTESIAN_POINT('',(3.,1.16573417585641E-15,-19.));
#627=CARTESIAN_POINT('',(3.,1.16573417585641E-15,-20.75));
#628=CARTESIAN_POINT('',(3.,-16.4544826719044,-9.49999999999997));
#629=CARTESIAN_POINT('',(3.,-16.4544826719044,-11.25));
#630=CARTESIAN_POINT('',(3.,-16.4544826719043,9.50000000000001));
#631=CARTESIAN_POINT('',(3.,-16.4544826719043,7.75000000000001));
#632=CARTESIAN_POINT('',(3.,1.16573417585641E-15,19.));
#633=CARTESIAN_POINT('',(3.,1.16573417585641E-15,17.25));
#634=CARTESIAN_POINT('',(3.,22.5,0.));
#635=CARTESIAN_POINT('',(0.7,0.,0.));
#636=CARTESIAN_POINT('',(0.7,0.,16.01));
#637=CARTESIAN_POINT('',(2.8,0.,0.));
#638=CARTESIAN_POINT('',(2.8,0.,-16.01));
#639=CARTESIAN_POINT('',(0.,0.,0.));
#640=CARTESIAN_POINT('',(0.,0.,0.));
#641=CARTESIAN_POINT('',(0.,0.,16.71));
#642=CARTESIAN_POINT('',(0.,0.,0.));
#643=CARTESIAN_POINT('',(0.,0.,25.875));
#644=CARTESIAN_POINT('',(0.,9.50000000000008,16.4544826719043));
#645=CARTESIAN_POINT('',(0.,9.50000000000008,15.1544826719043));
#646=CARTESIAN_POINT('',(0.,19.,-6.57252030578093E-14));
#647=CARTESIAN_POINT('',(0.,19.,-1.30000000000007));
#648=CARTESIAN_POINT('',(0.,9.49999999999995,-16.4544826719044));
#649=CARTESIAN_POINT('',(0.,9.49999999999995,-17.7544826719044));
#650=CARTESIAN_POINT('',(0.,-9.49999999999999,-16.4544826719043));
#651=CARTESIAN_POINT('',(0.,-9.49999999999999,-17.7544826719043));
#652=CARTESIAN_POINT('',(0.,-19.,1.95399252334028E-14));
#653=CARTESIAN_POINT('',(0.,-19.,-1.29999999999998));
#654=CARTESIAN_POINT('',(0.,-9.49999999999999,16.4544826719043));
#655=CARTESIAN_POINT('',(0.,-9.49999999999999,15.1544826719043));
#656=CARTESIAN_POINT('',(-1.77635683940025E-15,16.4544826719044,9.49999999999993));
#657=CARTESIAN_POINT('',(-1.77635683940025E-15,16.4544826719044,7.74999999999993));
#658=CARTESIAN_POINT('',(-1.77635683940025E-15,16.4544826719043,-9.50000000000006));
#659=CARTESIAN_POINT('',(-1.77635683940025E-15,16.4544826719043,-11.2500000000001));
#660=CARTESIAN_POINT('',(-1.77635683940025E-15,1.16573417585641E-15,-19.));
#661=CARTESIAN_POINT('',(-1.77635683940025E-15,1.16573417585641E-15,-20.75));
#662=CARTESIAN_POINT('',(-1.77635683940025E-15,-16.4544826719044,-9.49999999999997));
#663=CARTESIAN_POINT('',(-1.77635683940025E-15,-16.4544826719044,-11.25));
#664=CARTESIAN_POINT('',(-1.77635683940025E-15,-16.4544826719043,9.50000000000001));
#665=CARTESIAN_POINT('',(-1.77635683940025E-15,-16.4544826719043,7.75000000000001));
#666=CARTESIAN_POINT('',(-1.77635683940025E-15,1.16573417585641E-15,19.));
#667=CARTESIAN_POINT('',(-1.77635683940025E-15,1.16573417585641E-15,17.25));
#668=CARTESIAN_POINT('',(0.,16.01,0.));
#669=CARTESIAN_POINT('',(6.80000000000001,0.,0.));
#670=CARTESIAN_POINT('',(6.80000000000001,0.,-26.075));
#671=CARTESIAN_POINT('',(0.2,0.,0.));
#672=CARTESIAN_POINT('',(0.2,0.,26.075));
#673=CARTESIAN_POINT('',(0.,0.,0.));
#674=CARTESIAN_POINT('',(7.00000000000001,0.,0.));
#675=CARTESIAN_POINT('',(7.00000000000001,0.,-25.875));
#676=CARTESIAN_POINT('',(7.00000000000001,26.075,0.));
#677=CARTESIAN_POINT('',(-1.77635683940025E-15,1.16573417585641E-15,19.));
#678=CARTESIAN_POINT('',(-1.77635683940025E-15,-16.4544826719043,9.50000000000001));
#679=CARTESIAN_POINT('',(-1.77635683940025E-15,-16.4544826719044,-9.49999999999997));
#680=CARTESIAN_POINT('',(-1.77635683940025E-15,1.16573417585641E-15,-19.));
#681=CARTESIAN_POINT('',(-1.77635683940025E-15,16.4544826719043,-9.50000000000006));
#682=CARTESIAN_POINT('',(-1.77635683940025E-15,16.4544826719044,9.49999999999993));
#683=CARTESIAN_POINT('',(0.,-9.49999999999999,16.4544826719043));
#684=CARTESIAN_POINT('',(0.,-19.,1.95399252334028E-14));
#685=CARTESIAN_POINT('',(0.,-9.49999999999999,-16.4544826719043));
#686=CARTESIAN_POINT('',(0.,9.49999999999995,-16.4544826719044));
#687=CARTESIAN_POINT('',(0.,19.,-6.57252030578093E-14));
#688=CARTESIAN_POINT('',(0.,9.50000000000008,16.4544826719043));
#689=CARTESIAN_POINT('',(3.5,0.,0.));
#690=CARTESIAN_POINT('',(3.,0.,0.));
#691=CARTESIAN_POINT('',(6.80000000000001,0.,0.));
#692=CARTESIAN_POINT('',(0.,0.,0.));
#693=CARTESIAN_POINT('',(0.7,0.,0.));
#694=MECHANICAL_DESIGN_GEOMETRIC_PRESENTATION_REPRESENTATION('',(#32),#695);
#695=(
GEOMETRIC_REPRESENTATION_CONTEXT(3)
GLOBAL_UNCERTAINTY_ASSIGNED_CONTEXT((#696))
GLOBAL_UNIT_ASSIGNED_CONTEXT((#702,#698,#697))
REPRESENTATION_CONTEXT('52 DIAMETER B SECTION RING_A',
'TOP_LEVEL_ASSEMBLY_PART')
);
#696=UNCERTAINTY_MEASURE_WITH_UNIT(LENGTH_MEASURE(2.E-5),#702,
'DISTANCE_ACCURACY_VALUE','Maximum Tolerance applied to model');
#697=(
NAMED_UNIT(*)
SI_UNIT($,.STERADIAN.)
SOLID_ANGLE_UNIT()
);
#698=(
CONVERSION_BASED_UNIT('DEGREE',#700)
NAMED_UNIT(#699)
PLANE_ANGLE_UNIT()
);
#699=DIMENSIONAL_EXPONENTS(0.,0.,0.,0.,0.,0.,0.);
#700=PLANE_ANGLE_MEASURE_WITH_UNIT(PLANE_ANGLE_MEASURE(0.0174532925),#701);
#701=(
NAMED_UNIT(*)
PLANE_ANGLE_UNIT()
SI_UNIT($,.RADIAN.)
);
#702=(
LENGTH_UNIT()
NAMED_UNIT(*)
SI_UNIT(.MILLI.,.METRE.)
);
ENDSEC;
END-ISO-10303-21;
